  0
SECTION
  2
HEADER
  9
$ACADVER
  1
AC1015
  9
$ACADMAINTVER
 70
     6
  9
$DWGCODEPAGE
  3
ANSI_1254
  9
$INSBASE
 10
0.0
 20
0.0
 30
0.0
  9
$EXTMIN
 10
0.0
 20
0.0
 30
0.0
  9
$EXTMAX
 10
279.4
 20
215.9
 30
0.0
  9
$LIMMIN
 10
0.0
 20
0.0
  9
$LIMMAX
 10
279.4
 20
215.9
  9
$ORTHOMODE
 70
     0
  9
$REGENMODE
 70
     1
  9
$FILLMODE
 70
     1
  9
$QTEXTMODE
 70
     0
  9
$MIRRTEXT
 70
     1
  9
$LTSCALE
 40
1.0
  9
$ATTMODE
 70
     1
  9
$TEXTSIZE
 40
3.5
  9
$TRACEWID
 40
1.0
  9
$TEXTSTYLE
  7
Standard
  9
$CLAYER
  8
0
  9
$CELTYPE
  6
ByLayer
  9
$CECOLOR
 62
   256
  9
$CELTSCALE
 40
1.0
  9
$DISPSILH
 70
     0
  9
$DIMSCALE
 40
1.0
  9
$DIMASZ
 40
3.5
  9
$DIMEXO
 40
1.0
  9
$DIMDLI
 40
3.75
  9
$DIMRND
 40
0.0
  9
$DIMDLE
 40
0.0
  9
$DIMEXE
 40
1.0
  9
$DIMTP
 40
0.0
  9
$DIMTM
 40
0.0
  9
$DIMTXT
 40
3.5
  9
$DIMCEN
 40
2.5
  9
$DIMTSZ
 40
0.0
  9
$DIMTOL
 70
     0
  9
$DIMLIM
 70
     0
  9
$DIMTIH
 70
     1
  9
$DIMTOH
 70
     1
  9
$DIMSE1
 70
     0
  9
$DIMSE2
 70
     0
  9
$DIMTAD
 70
     1
  9
$DIMZIN
 70
     0
  9
$DIMBLK
  1

  9
$DIMASO
 70
     1
  9
$DIMSHO
 70
     1
  9
$DIMPOST
  1

  9
$DIMAPOST
  1

  9
$DIMALT
 70
     0
  9
$DIMALTD
 70
     3
  9
$DIMALTF
 40
0.0393700787
  9
$DIMLFAC
 40
1.0
  9
$DIMTOFL
 70
     1
  9
$DIMTVP
 40
0.0
  9
$DIMTIX
 70
     0
  9
$DIMSOXD
 70
     0
  9
$DIMSAH
 70
     0
  9
$DIMBLK1
  1

  9
$DIMBLK2
  1

  9
$DIMSTYLE
  2
ISO-25
  9
$DIMCLRD
 70
     0
  9
$DIMCLRE
 70
     0
  9
$DIMCLRT
 70
     0
  9
$DIMTFAC
 40
1.0
  9
$DIMGAP
 40
1.524
  9
$DIMJUST
 70
     0
  9
$DIMSD1
 70
     0
  9
$DIMSD2
 70
     0
  9
$DIMTOLJ
 70
     0
  9
$DIMTZIN
 70
     0
  9
$DIMALTZ
 70
     0
  9
$DIMALTTZ
 70
     0
  9
$DIMUPT
 70
     0
  9
$DIMDEC
 70
     2
  9
$DIMTDEC
 70
     2
  9
$DIMALTU
 70
     2
  9
$DIMALTTD
 70
     3
  9
$DIMTXSTY
  7
Standard
  9
$DIMAUNIT
 70
     0
  9
$DIMADEC
 70
     2
  9
$DIMALTRND
 40
0.0
  9
$DIMAZIN
 70
     0
  9
$DIMDSEP
 70
    44
  9
$DIMATFIT
 70
     3
  9
$DIMFRAC
 70
     0
  9
$DIMLDRBLK
  1

  9
$DIMLUNIT
 70
     2
  9
$DIMLWD
 70
    -2
  9
$DIMLWE
 70
    -2
  9
$DIMTMOVE
 70
     0
  9
$LUNITS
 70
     2
  9
$LUPREC
 70
     2
  9
$SKETCHINC
 40
1.0
  9
$FILLETRAD
 40
10.0
  9
$AUNITS
 70
     0
  9
$AUPREC
 70
     2
  9
$MENU
  1
.
  9
$ELEVATION
 40
0.0
  9
$PELEVATION
 40
0.0
  9
$THICKNESS
 40
0.0
  9
$LIMCHECK
 70
     0
  9
$CHAMFERA
 40
0.0
  9
$CHAMFERB
 40
0.0
  9
$CHAMFERC
 40
0.0
  9
$CHAMFERD
 40
0.0
  9
$SKPOLY
 70
     0
  9
$TDCREATE
 40
2459935.699909317
  9
$TDUCREATE
 40
2459935.574909317
  9
$TDUPDATE
 40
2459935.699909491
  9
$TDUUPDATE
 40
2459935.574909491
  9
$TDINDWG
 40
0.0000000116
  9
$TDUSRTIMER
 40
0.0000000116
  9
$USRTIMER
 70
     1
  9
$ANGBASE
 50
0.0
  9
$ANGDIR
 70
     0
  9
$PDMODE
 70
     0
  9
$PDSIZE
 40
-1.0
  9
$PLINEWID
 40
0.0
  9
$SPLFRAME
 70
     0
  9
$SPLINETYPE
 70
     6
  9
$SPLINESEGS
 70
     8
  9
$HANDSEED
  5
ED
  9
$SURFTAB1
 70
     6
  9
$SURFTAB2
 70
     6
  9
$SURFTYPE
 70
     6
  9
$SURFU
 70
     6
  9
$SURFV
 70
     6
  9
$UCSBASE
  2

  9
$UCSNAME
  2

  9
$UCSORG
 10
0.0
 20
0.0
 30
0.0
  9
$UCSXDIR
 10
1.0
 20
0.0
 30
0.0
  9
$UCSYDIR
 10
0.0
 20
1.0
 30
0.0
  9
$UCSORTHOREF
  2

  9
$UCSORTHOVIEW
 70
     0
  9
$UCSORGTOP
 10
0.0
 20
0.0
 30
0.0
  9
$UCSORGBOTTOM
 10
0.0
 20
0.0
 30
0.0
  9
$UCSORGLEFT
 10
0.0
 20
0.0
 30
0.0
  9
$UCSORGRIGHT
 10
0.0
 20
0.0
 30
0.0
  9
$UCSORGFRONT
 10
0.0
 20
0.0
 30
0.0
  9
$UCSORGBACK
 10
0.0
 20
0.0
 30
0.0
  9
$PUCSBASE
  2

  9
$PUCSNAME
  2

  9
$PUCSORG
 10
0.0
 20
0.0
 30
0.0
  9
$PUCSXDIR
 10
1.0
 20
0.0
 30
0.0
  9
$PUCSYDIR
 10
0.0
 20
1.0
 30
0.0
  9
$PUCSORTHOREF
  2

  9
$PUCSORTHOVIEW
 70
     0
  9
$PUCSORGTOP
 10
0.0
 20
0.0
 30
0.0
  9
$PUCSORGBOTTOM
 10
0.0
 20
0.0
 30
0.0
  9
$PUCSORGLEFT
 10
0.0
 20
0.0
 30
0.0
  9
$PUCSORGRIGHT
 10
0.0
 20
0.0
 30
0.0
  9
$PUCSORGFRONT
 10
0.0
 20
0.0
 30
0.0
  9
$PUCSORGBACK
 10
0.0
 20
0.0
 30
0.0
  9
$USERI1
 70
     0
  9
$USERI2
 70
     0
  9
$USERI3
 70
     0
  9
$USERI4
 70
     0
  9
$USERI5
 70
     0
  9
$USERR1
 40
0.0
  9
$USERR2
 40
0.0
  9
$USERR3
 40
0.0
  9
$USERR4
 40
0.0
  9
$USERR5
 40
0.0
  9
$WORLDVIEW
 70
     1
  9
$SHADEDGE
 70
     3
  9
$SHADEDIF
 70
    70
  9
$TILEMODE
 70
     1
  9
$MAXACTVP
 70
    64
  9
$PINSBASE
 10
0.0
 20
0.0
 30
0.0
  9
$PLIMCHECK
 70
     0
  9
$PEXTMIN
 10
1.0000000000E+20
 20
1.0000000000E+20
 30
1.0000000000E+20
  9
$PEXTMAX
 10
-1.0000000000E+20
 20
-1.0000000000E+20
 30
-1.0000000000E+20
  9
$PLIMMIN
 10
0.0
 20
0.0
  9
$PLIMMAX
 10
420.0
 20
297.0
  9
$UNITMODE
 70
     0
  9
$VISRETAIN
 70
     1
  9
$PLINEGEN
 70
     0
  9
$PSLTSCALE
 70
     1
  9
$TREEDEPTH
 70
  3020
  9
$CMLSTYLE
  2
Standard
  9
$CMLJUST
 70
     0
  9
$CMLSCALE
 40
20.0
  9
$PROXYGRAPHICS
 70
     1
  9
$MEASUREMENT
 70
     1
  9
$CELWEIGHT
370
    -1
  9
$ENDCAPS
280
     0
  9
$JOINSTYLE
280
     0
  9
$LWDISPLAY
290
     1
  9
$INSUNITS
 70
     4
  9
$HYPERLINKBASE
  1

  9
$STYLESHEET
  1

  9
$XEDIT
290
     1
  9
$CEPSNTYPE
380
     0
  9
$PSTYLEMODE
290
     1
  9
$FINGERPRINTGUID
  2
{38ed233c-f22f-452f-ae7e-b3ae9aef5725}
  9
$VERSIONGUID
  2
{FAEB1C32-E019-11D5-929B-00C0DF256EC4}
  9
$EXTNAMES
290
     1
  9
$PSVPSCALE
 40
0.0
  9
$OLESTARTUP
290
     0
  0
ENDSEC
  0
SECTION
  2
CLASSES
  0
CLASS
  1
ACDBDICTIONARYWDFLT
  2
AcDbDictionaryWithDefault
  3
ObjectDBX Classes
 90
        0
280
     0
281
     0
  0
CLASS
  1
VISUALSTYLE
  2
AcDbVisualStyle
  3
ObjectDBX Classes
 90
     4095
280
     0
281
     0
  0
CLASS
  1
MATERIAL
  2
AcDbMaterial
  3
ObjectDBX Classes
 90
     1153
280
     0
281
     0
  0
CLASS
  1
SCALE
  2
AcDbScale
  3
ObjectDBX Classes
 90
     1153
280
     0
281
     0
  0
CLASS
  1
TABLESTYLE
  2
AcDbTableStyle
  3
ObjectDBX Classes
 90
     4095
280
     0
281
     0
  0
CLASS
  1
MLEADERSTYLE
  2
AcDbMLeaderStyle
  3
ACDB_MLEADERSTYLE_CLASS
 90
     4095
280
     0
281
     0
  0
CLASS
  1
SUN
  2
AcDbSun
  3
SCENEOE
 90
     1153
280
     0
281
     0
  0
CLASS
  1
ACDBPLACEHOLDER
  2
AcDbPlaceHolder
  3
ObjectDBX Classes
 90
        0
280
     0
281
     0
  0
CLASS
  1
LAYOUT
  2
AcDbLayout
  3
ObjectDBX Classes
 90
        0
280
     0
281
     0
  0
ENDSEC
  0
SECTION
  2
TABLES
  0
TABLE
  2
VPORT
  5
8
330
0
100
AcDbSymbolTable
 70
     1
  0
VPORT
  5
29
330
8
100
AcDbSymbolTableRecord
100
AcDbViewportTableRecord
  2
*Active
 70
     0
 10
0.0
 20
0.0
 11
1.0
 21
1.0
 12
139.7
 22
107.95
 13
0.0
 23
0.0
 14
10.0
 24
10.0
 15
10.0
 25
10.0
 16
0.0
 26
0.0
 36
1.0
 17
0.0
 27
0.0
 37
0.0
 40
215.9
 41
1.2941176471
 42
50.0
 43
0.0
 44
0.0
 50
0.0
 51
0.0
 71
     0
 72
  2000
 73
     1
 74
     3
 75
     0
 76
     0
 77
     0
 78
     0
281
     0
 65
     1
110
0.0
120
0.0
130
0.0
111
1.0
121
0.0
131
0.0
112
0.0
122
1.0
132
0.0
 79
     0
146
0.0
  0
ENDTAB
  0
TABLE
  2
LTYPE
  5
5
330
0
100
AcDbSymbolTable
 70
     6
  0
LTYPE
  5
14
330
5
100
AcDbSymbolTableRecord
100
AcDbLinetypeTableRecord
  2
ByBlock
 70
     0
  3

 72
    65
 73
     0
 40
0.0
  0
LTYPE
  5
15
330
5
100
AcDbSymbolTableRecord
100
AcDbLinetypeTableRecord
  2
ByLayer
 70
     0
  3

 72
    65
 73
     0
 40
0.0
  0
LTYPE
  5
16
330
5
100
AcDbSymbolTableRecord
100
AcDbLinetypeTableRecord
  2
Continuous
 70
     0
  3
Solid line
 72
    65
 73
     0
 40
0.0
  0
LTYPE
  5
6E
330
5
100
AcDbSymbolTableRecord
100
AcDbLinetypeTableRecord
  2
HIDDEN
 70
     0
  3
Hidden __ __ __ __ __ __ __ __ __ __ __ __ __ __
 72
    65
 73
     2
 40
1.905
 49
1.27
 74
     0
 49
-0.635
 74
     0
  0
LTYPE
  5
6F
330
5
100
AcDbSymbolTableRecord
100
AcDbLinetypeTableRecord
  2
PHANTOM
 70
     0
  3
Phantom ______  __  __  ______  __  __  ______
 72
    65
 73
     6
 40
12.7
 49
6.35
 74
     0
 49
-1.27
 74
     0
 49
1.27
 74
     0
 49
-1.27
 74
     0
 49
1.27
 74
     0
 49
-1.27
 74
     0
  0
LTYPE
  5
70
330
5
100
AcDbSymbolTableRecord
100
AcDbLinetypeTableRecord
  2
CENTER
 70
     0
  3
Center ____ _ ____ _ ____ _ ____ _ ____ _ ____
 72
    65
 73
     4
 40
10.16
 49
6.35
 74
     0
 49
-1.27
 74
     0
 49
1.27
 74
     0
 49
-1.27
 74
     0
  0
LTYPE
  5
71
330
5
100
AcDbSymbolTableRecord
100
AcDbLinetypeTableRecord
  2
CENTERX2
 70
     0
  3
Center (2x) ________  __  ________  __  _____
 72
    65
 73
     4
 40
20.32
 49
12.7
 74
     0
 49
-2.54
 74
     0
 49
2.54
 74
     0
 49
-2.54
 74
     0
  0
LTYPE
  5
72
330
5
100
AcDbSymbolTableRecord
100
AcDbLinetypeTableRecord
  2
DOT2
 70
     0
  3
Dot (.5x) ........................................
 72
    65
 73
     2
 40
0.635
 49
0.0
 74
     0
 49
-0.635
 74
     0
  0
ENDTAB
  0
TABLE
  2
LAYER
  5
2
330
0
100
AcDbSymbolTable
 70
    17
  0
LAYER
  5
10
330
2
100
AcDbSymbolTableRecord
100
AcDbLayerTableRecord
  2
0
 70
     0
 62
     7
  6
Continuous
370
    -3
390
F
  0
LAYER
  5
73
330
2
100
AcDbSymbolTableRecord
100
AcDbLayerTableRecord
  2
FORMAT
 70
     0
 62
     7
  6
Continuous
370
    -3
390
F
  0
LAYER
  5
74
330
2
100
AcDbSymbolTableRecord
100
AcDbLayerTableRecord
  2
YARDIMCI_GEOMETRI
 70
     0
 62
    -6
  6
Continuous
290
     0
370
    -3
390
F
  0
LAYER
  5
75
330
2
100
AcDbSymbolTableRecord
100
AcDbLayerTableRecord
  2
SAYFA_CERCEVESI
 70
     0
 62
     7
  6
Continuous
370
    25
390
F
  0
LAYER
  5
76
330
2
100
AcDbSymbolTableRecord
100
AcDbLayerTableRecord
  2
ANTET
 70
     0
 62
     7
  6
Continuous
370
    -3
390
F
  0
LAYER
  5
77
330
2
100
AcDbSymbolTableRecord
100
AcDbLayerTableRecord
  2
OLCU
 70
     0
 62
   150
  6
Continuous
370
    -3
390
F
  0
LAYER
  5
78
330
2
100
AcDbSymbolTableRecord
100
AcDbLayerTableRecord
  2
METIN
 70
     0
 62
    96
  6
Continuous
370
    -3
390
F
  0
LAYER
  5
79
330
2
100
AcDbSymbolTableRecord
100
AcDbLayerTableRecord
  2
BALON
 70
     0
 62
     5
  6
Continuous
370
    -3
390
F
  0
LAYER
  5
7A
330
2
100
AcDbSymbolTableRecord
100
AcDbLayerTableRecord
  2
VURGU
 70
     0
 62
     7
  6
Continuous
370
    -3
390
F
  0
LAYER
  5
7B
330
2
100
AcDbSymbolTableRecord
100
AcDbLayerTableRecord
  2
SILIK
 70
     0
 62
     7
  6
Continuous
370
    -3
390
F
  0
LAYER
  5
7C
330
2
100
AcDbSymbolTableRecord
100
AcDbLayerTableRecord
  2
MODEL
 70
     0
 62
     7
  6
Continuous
370
    -3
390
F
  0
LAYER
  5
7D
330
2
100
AcDbSymbolTableRecord
100
AcDbLayerTableRecord
  2
DETAYLANDıRMA
 70
     0
 62
   190
  6
Continuous
370
    -3
390
F
  0
LAYER
  5
7E
330
2
100
AcDbSymbolTableRecord
100
AcDbLayerTableRecord
  2
TOLERANS
 70
     0
 62
   230
  6
Continuous
370
    -3
390
F
  0
LAYER
  5
7F
330
2
100
AcDbSymbolTableRecord
100
AcDbLayerTableRecord
  2
MERKEZ_CIZGILERI
 70
     0
 62
    30
  6
Continuous
370
    -3
390
F
  0
LAYER
  5
80
330
2
100
AcDbSymbolTableRecord
100
AcDbLayerTableRecord
  2
KESIT-DETAY_CIZGILERI
 70
     0
 62
     7
  6
Continuous
370
    -3
390
F
  0
LAYER
  5
81
330
2
100
AcDbSymbolTableRecord
100
AcDbLayerTableRecord
  2
\U+041E\U+0421\U+0415\U+0412\U+042B\U+0415
 70
     0
 62
     7
  6
Continuous
370
    -3
390
F
  0
LAYER
  5
82
330
2
100
AcDbSymbolTableRecord
100
AcDbLayerTableRecord
  2
\U+0412\U+041E\U+0414\U+042F\U+041D\U+042B\U+0415_\U+0417\U+041D\U+0410\U+041A\U+0418
 70
     0
 62
    11
  6
Continuous
370
    -3
390
F
  0
ENDTAB
  0
TABLE
  2
STYLE
  5
3
330
0
100
AcDbSymbolTable
 70
     1
  0
STYLE
  5
11
330
3
100
AcDbSymbolTableRecord
100
AcDbTextStyleTableRecord
  2
Standard
 70
     0
 40
0.0
 41
1.0
 50
0.0
 71
     0
 42
3.5
  3
txt
  4

  0
ENDTAB
  0
TABLE
  2
VIEW
  5
6
330
0
100
AcDbSymbolTable
 70
     0
  0
ENDTAB
  0
TABLE
  2
UCS
  5
7
330
0
100
AcDbSymbolTable
 70
     0
  0
ENDTAB
  0
TABLE
  2
APPID
  5
9
330
0
100
AcDbSymbolTable
 70
     1
  0
APPID
  5
12
330
9
100
AcDbSymbolTableRecord
100
AcDbRegAppTableRecord
  2
ACAD
 70
     0
  0
ENDTAB
  0
TABLE
  2
DIMSTYLE
  5
A
330
0
100
AcDbSymbolTable
 70
     1
100
AcDbDimStyleTable
  0
DIMSTYLE
105
27
330
A
100
AcDbSymbolTableRecord
100
AcDbDimStyleTableRecord
  2
ISO-25
 70
     0
 41
2.5
 42
0.625
 43
3.75
 44
1.25
 73
     0
 74
     0
 77
     1
 78
     8
140
2.5
141
2.5
143
0.0393700787
147
0.625
171
     3
172
     1
178
     0
271
     2
272
     2
274
     3
278
    44
283
     0
284
     8
340
11
  0
ENDTAB
  0
TABLE
  2
BLOCK_RECORD
  5
1
330
0
100
AcDbSymbolTable
 70
     5
  0
BLOCK_RECORD
  5
1F
330
1
100
AcDbSymbolTableRecord
100
AcDbBlockTableRecord
  2
*Model_Space
340
22
  0
BLOCK_RECORD
  5
1B
330
1
100
AcDbSymbolTableRecord
100
AcDbBlockTableRecord
  2
*Paper_Space
340
1E
  0
BLOCK_RECORD
  5
23
330
1
100
AcDbSymbolTableRecord
100
AcDbBlockTableRecord
  2
*Paper_Space0
340
26
  0
BLOCK_RECORD
  5
97
330
1
100
AcDbSymbolTableRecord
100
AcDbBlockTableRecord
  2
SW_CENTERMARKSYMBOL_0
340
0
102
{BLKREFS
331
A2
102
}
  0
BLOCK_RECORD
  5
AC
330
1
100
AcDbSymbolTableRecord
100
AcDbBlockTableRecord
  2
SW_CENTERMARKSYMBOL_1
340
0
102
{BLKREFS
331
B7
102
}
  0
BLOCK_RECORD
  5
BF
330
1
100
AcDbSymbolTableRecord
100
AcDbBlockTableRecord
  2
SW_CENTERMARKSYMBOL_2
340
0
102
{BLKREFS
331
CA
102
}
  0
BLOCK_RECORD
  5
D2
330
1
100
AcDbSymbolTableRecord
100
AcDbBlockTableRecord
  2
SW_CENTERMARKSYMBOL_3
340
0
102
{BLKREFS
331
DD
102
}
  0
ENDTAB
  0
ENDSEC
  0
SECTION
  2
BLOCKS
  0
BLOCK
  5
20
330
1F
100
AcDbEntity
  8
0
100
AcDbBlockBegin
  2
*Model_Space
 70
     0
 10
0.0
 20
0.0
 30
0.0
  3
*Model_Space
  1

  0
ENDBLK
  5
21
330
1F
100
AcDbEntity
  8
0
100
AcDbBlockEnd
  0
BLOCK
  5
1C
330
1B
100
AcDbEntity
 67
     1
  8
0
100
AcDbBlockBegin
  2
*Paper_Space
 70
     0
 10
0.0
 20
0.0
 30
0.0
  3
*Paper_Space
  1

  0
ENDBLK
  5
1D
330
1B
100
AcDbEntity
 67
     1
  8
0
100
AcDbBlockEnd
  0
BLOCK
  5
24
330
23
100
AcDbEntity
  8
0
100
AcDbBlockBegin
  2
*Paper_Space0
 70
     0
 10
0.0
 20
0.0
 30
0.0
  3
*Paper_Space0
  1

  0
ENDBLK
  5
25
330
23
100
AcDbEntity
  8
0
100
AcDbBlockEnd
  0
BLOCK
  5
98
330
97
100
AcDbEntity
  8
0
100
AcDbBlockBegin
  2
SW_CENTERMARKSYMBOL_0
 70
     0
 10
0.0
 20
0.0
 30
0.0
  3
SW_CENTERMARKSYMBOL_0
  1

  0
LINE
  5
9A
330
97
100
AcDbEntity
  8
FORMAT
 62
     0
100
AcDbLine
 10
0.0
 20
0.0
 30
0.0
 11
0.0
 21
2.5
 31
0.0
  0
LINE
  5
9B
330
97
100
AcDbEntity
  8
FORMAT
 62
     0
100
AcDbLine
 10
0.0
 20
0.0
 30
0.0
 11
-2.5
 21
0.0
 31
0.0
  0
LINE
  5
9C
330
97
100
AcDbEntity
  8
FORMAT
 62
     0
100
AcDbLine
 10
0.0
 20
0.0
 30
0.0
 11
0.0
 21
-2.5
 31
0.0
  0
LINE
  5
9D
330
97
100
AcDbEntity
  8
FORMAT
 62
     0
100
AcDbLine
 10
0.0
 20
0.0
 30
0.0
 11
2.5
 21
0.0
 31
0.0
  0
LINE
  5
9E
330
97
100
AcDbEntity
  8
FORMAT
 62
     0
100
AcDbLine
 10
0.0
 20
5.0
 30
0.0
 11
0.0
 21
142.5
 31
0.0
  0
LINE
  5
9F
330
97
100
AcDbEntity
  8
FORMAT
 62
     0
100
AcDbLine
 10
-5.0
 20
0.0
 30
0.0
 11
-142.5
 21
0.0
 31
0.0
  0
LINE
  5
A0
330
97
100
AcDbEntity
  8
FORMAT
 62
     0
100
AcDbLine
 10
0.0
 20
-5.0
 30
0.0
 11
0.0
 21
-142.5
 31
0.0
  0
LINE
  5
A1
330
97
100
AcDbEntity
  8
FORMAT
 62
     0
100
AcDbLine
 10
5.0
 20
0.0
 30
0.0
 11
142.5
 21
0.0
 31
0.0
  0
ENDBLK
  5
99
330
97
100
AcDbEntity
  8
0
100
AcDbBlockEnd
  0
BLOCK
  5
AD
330
AC
100
AcDbEntity
  8
0
100
AcDbBlockBegin
  2
SW_CENTERMARKSYMBOL_1
 70
     0
 10
0.0
 20
0.0
 30
0.0
  3
SW_CENTERMARKSYMBOL_1
  1

  0
LINE
  5
AF
330
AC
100
AcDbEntity
  8
FORMAT
 62
     0
100
AcDbLine
 10
0.0
 20
0.0
 30
0.0
 11
0.0
 21
2.5
 31
0.0
  0
LINE
  5
B0
330
AC
100
AcDbEntity
  8
FORMAT
 62
     0
100
AcDbLine
 10
0.0
 20
0.0
 30
0.0
 11
-2.5
 21
0.0
 31
0.0
  0
LINE
  5
B1
330
AC
100
AcDbEntity
  8
FORMAT
 62
     0
100
AcDbLine
 10
0.0
 20
0.0
 30
0.0
 11
0.0
 21
-2.5
 31
0.0
  0
LINE
  5
B2
330
AC
100
AcDbEntity
  8
FORMAT
 62
     0
100
AcDbLine
 10
0.0
 20
0.0
 30
0.0
 11
2.5
 21
0.0
 31
0.0
  0
LINE
  5
B3
330
AC
100
AcDbEntity
  8
FORMAT
 62
     0
100
AcDbLine
 10
0.0
 20
5.0
 30
0.0
 11
0.0
 21
142.5
 31
0.0
  0
LINE
  5
B4
330
AC
100
AcDbEntity
  8
FORMAT
 62
     0
100
AcDbLine
 10
-5.0
 20
0.0
 30
0.0
 11
-142.5
 21
0.0
 31
0.0
  0
LINE
  5
B5
330
AC
100
AcDbEntity
  8
FORMAT
 62
     0
100
AcDbLine
 10
0.0
 20
-5.0
 30
0.0
 11
0.0
 21
-142.5
 31
0.0
  0
LINE
  5
B6
330
AC
100
AcDbEntity
  8
FORMAT
 62
     0
100
AcDbLine
 10
5.0
 20
0.0
 30
0.0
 11
142.5
 21
0.0
 31
0.0
  0
ENDBLK
  5
AE
330
AC
100
AcDbEntity
  8
0
100
AcDbBlockEnd
  0
BLOCK
  5
C0
330
BF
100
AcDbEntity
  8
0
100
AcDbBlockBegin
  2
SW_CENTERMARKSYMBOL_2
 70
     0
 10
0.0
 20
0.0
 30
0.0
  3
SW_CENTERMARKSYMBOL_2
  1

  0
LINE
  5
C2
330
BF
100
AcDbEntity
  8
FORMAT
 62
     0
100
AcDbLine
 10
0.0
 20
0.0
 30
0.0
 11
0.0
 21
2.5
 31
0.0
  0
LINE
  5
C3
330
BF
100
AcDbEntity
  8
FORMAT
 62
     0
100
AcDbLine
 10
0.0
 20
0.0
 30
0.0
 11
-2.5
 21
0.0
 31
0.0
  0
LINE
  5
C4
330
BF
100
AcDbEntity
  8
FORMAT
 62
     0
100
AcDbLine
 10
0.0
 20
0.0
 30
0.0
 11
0.0
 21
-2.5
 31
0.0
  0
LINE
  5
C5
330
BF
100
AcDbEntity
  8
FORMAT
 62
     0
100
AcDbLine
 10
0.0
 20
0.0
 30
0.0
 11
2.5
 21
0.0
 31
0.0
  0
LINE
  5
C6
330
BF
100
AcDbEntity
  8
FORMAT
 62
     0
100
AcDbLine
 10
0.0
 20
5.0
 30
0.0
 11
0.0
 21
142.5
 31
0.0
  0
LINE
  5
C7
330
BF
100
AcDbEntity
  8
FORMAT
 62
     0
100
AcDbLine
 10
-5.0
 20
0.0
 30
0.0
 11
-142.5
 21
0.0
 31
0.0
  0
LINE
  5
C8
330
BF
100
AcDbEntity
  8
FORMAT
 62
     0
100
AcDbLine
 10
0.0
 20
-5.0
 30
0.0
 11
0.0
 21
-142.5
 31
0.0
  0
LINE
  5
C9
330
BF
100
AcDbEntity
  8
FORMAT
 62
     0
100
AcDbLine
 10
5.0
 20
0.0
 30
0.0
 11
142.5
 21
0.0
 31
0.0
  0
ENDBLK
  5
C1
330
BF
100
AcDbEntity
  8
0
100
AcDbBlockEnd
  0
BLOCK
  5
D3
330
D2
100
AcDbEntity
  8
0
100
AcDbBlockBegin
  2
SW_CENTERMARKSYMBOL_3
 70
     0
 10
0.0
 20
0.0
 30
0.0
  3
SW_CENTERMARKSYMBOL_3
  1

  0
LINE
  5
D5
330
D2
100
AcDbEntity
  8
FORMAT
 62
     0
100
AcDbLine
 10
0.0
 20
0.0
 30
0.0
 11
0.0
 21
2.5
 31
0.0
  0
LINE
  5
D6
330
D2
100
AcDbEntity
  8
FORMAT
 62
     0
100
AcDbLine
 10
0.0
 20
0.0
 30
0.0
 11
-2.5
 21
0.0
 31
0.0
  0
LINE
  5
D7
330
D2
100
AcDbEntity
  8
FORMAT
 62
     0
100
AcDbLine
 10
0.0
 20
0.0
 30
0.0
 11
0.0
 21
-2.5
 31
0.0
  0
LINE
  5
D8
330
D2
100
AcDbEntity
  8
FORMAT
 62
     0
100
AcDbLine
 10
0.0
 20
0.0
 30
0.0
 11
2.5
 21
0.0
 31
0.0
  0
LINE
  5
D9
330
D2
100
AcDbEntity
  8
FORMAT
 62
     0
100
AcDbLine
 10
0.0
 20
5.0
 30
0.0
 11
0.0
 21
142.5
 31
0.0
  0
LINE
  5
DA
330
D2
100
AcDbEntity
  8
FORMAT
 62
     0
100
AcDbLine
 10
-5.0
 20
0.0
 30
0.0
 11
-142.5
 21
0.0
 31
0.0
  0
LINE
  5
DB
330
D2
100
AcDbEntity
  8
FORMAT
 62
     0
100
AcDbLine
 10
0.0
 20
-5.0
 30
0.0
 11
0.0
 21
-142.5
 31
0.0
  0
LINE
  5
DC
330
D2
100
AcDbEntity
  8
FORMAT
 62
     0
100
AcDbLine
 10
5.0
 20
0.0
 30
0.0
 11
142.5
 21
0.0
 31
0.0
  0
ENDBLK
  5
D4
330
D2
100
AcDbEntity
  8
0
100
AcDbBlockEnd
  0
ENDSEC
  0
SECTION
  2
ENTITIES
  0
LINE
  5
83
330
1F
100
AcDbEntity
  8
0
  6
Continuous
 62
     7
370
    25
100
AcDbLine
 10
-72.6925691349
 20
58.9784550566
 30
0.0
 11
-72.6925691349
 21
-141.0215449434
 31
0.0
  0
LINE
  5
84
330
1F
100
AcDbEntity
  8
0
  6
Continuous
 62
     7
370
    25
100
AcDbLine
 10
207.3074308651
 20
-141.0215449434
 30
0.0
 11
207.3074308651
 21
58.9784550566
 31
0.0
  0
ARC
  5
85
330
1F
100
AcDbEntity
  8
0
  6
Continuous
 62
     7
370
    25
100
AcDbCircle
 10
207.3074308651
 20
58.9784550566
 30
0.0
 40
280.0000000000001
100
AcDbArc
 50
90.0
 51
180.0
  0
LINE
  5
86
330
1F
100
AcDbEntity
  8
0
  6
Continuous
 62
     7
370
    25
100
AcDbLine
 10
407.3074308651
 20
338.9784550566
 30
0.0
 11
207.3074308651
 21
338.9784550566
 31
0.0
  0
LINE
  5
87
330
1F
100
AcDbEntity
  8
0
  6
Continuous
 62
     7
370
    25
100
AcDbLine
 10
207.3074308651
 20
58.9784550566
 30
0.0
 11
407.3074308651
 21
58.9784550566
 31
0.0
  0
LINE
  5
88
330
1F
100
AcDbEntity
  8
0
  6
Continuous
 62
     7
370
    25
100
AcDbLine
 10
67.3074308651
 20
-141.0215449434
 30
0.0
 11
207.3074308651
 21
-141.0215449434
 31
0.0
  0
LINE
  5
89
330
1F
100
AcDbEntity
  8
0
  6
Continuous
 62
     7
370
    25
100
AcDbLine
 10
-72.6925691349
 20
-141.0215449434
 30
0.0
 11
67.3074308651
 21
-141.0215449434
 31
0.0
  0
LINE
  5
8A
330
1F
100
AcDbEntity
  8
0
  6
Continuous
 62
     7
370
    25
100
AcDbLine
 10
407.3074308651
 20
198.9784550566
 30
0.0
 11
407.3074308651
 21
58.9784550566
 31
0.0
  0
LINE
  5
8B
330
1F
100
AcDbEntity
  8
0
  6
Continuous
 62
     7
370
    25
100
AcDbLine
 10
407.3074308651
 20
338.9784550566
 30
0.0
 11
407.3074308651
 21
198.9784550566
 31
0.0
  0
LINE
  5
8C
330
1F
100
AcDbEntity
  8
0
  6
Continuous
 62
     1
370
    25
100
AcDbLine
 10
-72.6925691349
 20
58.9784550566
 30
0.0
 11
207.3074308651
 21
58.9784550566
 31
0.0
  0
LINE
  5
8D
330
1F
100
AcDbEntity
  8
0
  6
Continuous
 62
     1
370
    25
100
AcDbLine
 10
207.3074308651
 20
338.9784550566
 30
0.0
 11
207.3074308651
 21
58.9784550566
 31
0.0
  0
LINE
  5
8E
330
1F
100
AcDbEntity
  8
0
  6
Continuous
 62
     7
370
    25
100
AcDbLine
 10
-551.3055654476
 20
198.9784550566
 30
0.0
 11
-551.3055654476
 21
58.9784550566
 31
0.0
  0
LINE
  5
8F
330
1F
100
AcDbEntity
  8
0
  6
Continuous
 62
     7
370
    25
100
AcDbLine
 10
-271.3055654476
 20
58.9784550566
 30
0.0
 11
-271.3055654476
 21
198.9784550566
 31
0.0
  0
LINE
  5
90
330
1F
100
AcDbEntity
  8
0
  6
Continuous
 62
     7
370
    25
100
AcDbLine
 10
-551.3055654476
 20
58.9784550566
 30
0.0
 11
-551.3055654476
 21
-141.0215449434
 31
0.0
  0
LINE
  5
91
330
1F
100
AcDbEntity
  8
0
  6
Continuous
 62
     7
370
    25
100
AcDbLine
 10
-271.3055654476
 20
-141.0215449434
 30
0.0
 11
-271.3055654476
 21
58.9784550566
 31
0.0
  0
CIRCLE
  5
92
330
1F
100
AcDbEntity
  8
0
  6
Continuous
 62
     7
370
    25
100
AcDbCircle
 10
-411.3055654476
 20
198.9784550566
 30
0.0
 40
140.0
  0
CIRCLE
  5
93
330
1F
100
AcDbEntity
  8
0
  6
Continuous
 62
     7
370
    25
100
AcDbCircle
 10
-411.3055654476
 20
198.9784550566
 30
0.0
 40
123.4000000000001
  0
LINE
  5
94
330
1F
100
AcDbEntity
  8
0
  6
Continuous
 62
     7
370
    25
100
AcDbLine
 10
-551.3055654476
 20
-141.0215449434
 30
0.0
 11
-271.3055654476
 21
-141.0215449434
 31
0.0
  0
LINE
  5
95
330
1F
100
AcDbEntity
  8
0
  6
Continuous
 62
     1
370
    25
100
AcDbLine
 10
-411.3055654476
 20
58.9784550566
 30
0.0
 11
-271.3055654476
 21
58.9784550566
 31
0.0
  0
LINE
  5
96
330
1F
100
AcDbEntity
  8
0
  6
Continuous
 62
     1
370
    25
100
AcDbLine
 10
-551.3055654476
 20
58.9784550566
 30
0.0
 11
-411.3055654476
 21
58.9784550566
 31
0.0
  0
INSERT
  5
A2
330
1F
100
AcDbEntity
  8
FORMAT
 62
     7
100
AcDbBlockReference
  2
SW_CENTERMARKSYMBOL_0
 10
-411.3055654476
 20
198.9784550566
 30
0.0
  0
LINE
  5
A3
330
1F
100
AcDbEntity
  8
0
  6
Continuous
 62
     7
370
    25
100
AcDbLine
 10
407.3074308651
 20
725.1722209641
 30
0.0
 11
207.3074308651
 21
725.1722209641
 31
0.0
  0
LINE
  5
A4
330
1F
100
AcDbEntity
  8
0
  6
Continuous
 62
     7
370
    25
100
AcDbLine
 10
207.3074308651
 20
445.1722209641
 30
0.0
 11
407.3074308651
 21
445.1722209641
 31
0.0
  0
LINE
  5
A5
330
1F
100
AcDbEntity
  8
0
  6
Continuous
 62
     7
370
    25
100
AcDbLine
 10
207.3074308651
 20
725.1722209641
 30
0.0
 11
67.3074308651
 21
725.1722209641
 31
0.0
  0
LINE
  5
A6
330
1F
100
AcDbEntity
  8
0
  6
Continuous
 62
     7
370
    25
100
AcDbLine
 10
67.3074308651
 20
445.1722209641
 30
0.0
 11
207.3074308651
 21
445.1722209641
 31
0.0
  0
CIRCLE
  5
A7
330
1F
100
AcDbEntity
  8
0
  6
Continuous
 62
     7
370
    25
100
AcDbCircle
 10
67.3074308651
 20
585.1722209641
 30
0.0
 40
123.4000000000001
  0
CIRCLE
  5
A8
330
1F
100
AcDbEntity
  8
0
  6
Continuous
 62
     7
370
    25
100
AcDbCircle
 10
67.3074308651
 20
585.1722209641
 30
0.0
 40
140.0000000000001
  0
LINE
  5
A9
330
1F
100
AcDbEntity
  8
0
  6
Continuous
 62
     7
370
    25
100
AcDbLine
 10
407.3074308651
 20
725.1722209641
 30
0.0
 11
407.3074308651
 21
445.1722209641
 31
0.0
  0
LINE
  5
AA
330
1F
100
AcDbEntity
  8
0
  6
Continuous
 62
     1
370
    25
100
AcDbLine
 10
207.3074308651
 20
585.1722209641
 30
0.0
 11
207.3074308651
 21
445.1722209641
 31
0.0
  0
LINE
  5
AB
330
1F
100
AcDbEntity
  8
0
  6
Continuous
 62
     1
370
    25
100
AcDbLine
 10
207.3074308651
 20
725.1722209641
 30
0.0
 11
207.3074308651
 21
585.1722209641
 31
0.0
  0
INSERT
  5
B7
330
1F
100
AcDbEntity
  8
FORMAT
 62
     7
100
AcDbBlockReference
  2
SW_CENTERMARKSYMBOL_1
 10
67.3074308651
 20
585.1722209641
 30
0.0
  0
LINE
  5
B8
330
1F
100
AcDbEntity
  8
0
  6
Continuous
 62
     7
370
    25
100
AcDbLine
 10
625.4771786029
 20
58.9784550566
 30
0.0
 11
625.4771786029
 21
-141.0215449434
 31
0.0
  0
LINE
  5
B9
330
1F
100
AcDbEntity
  8
0
  6
Continuous
 62
     7
370
    25
100
AcDbLine
 10
905.4771786029
 20
-141.0215449434
 30
0.0
 11
905.4771786029
 21
58.9784550566
 31
0.0
  0
LINE
  5
BA
330
1F
100
AcDbEntity
  8
0
  6
Continuous
 62
     7
370
    25
100
AcDbLine
 10
905.4771786029
 20
58.9784550566
 30
0.0
 11
905.4771786029
 21
198.9784550566
 31
0.0
  0
LINE
  5
BB
330
1F
100
AcDbEntity
  8
0
  6
Continuous
 62
     7
370
    25
100
AcDbLine
 10
625.4771786029
 20
198.9784550566
 30
0.0
 11
625.4771786029
 21
58.9784550566
 31
0.0
  0
LINE
  5
BC
330
1F
100
AcDbEntity
  8
0
  6
Continuous
 62
     7
370
    25
100
AcDbLine
 10
625.4771786029
 20
-141.0215449434
 30
0.0
 11
905.4771786029
 21
-141.0215449434
 31
0.0
  0
ARC
  5
BD
330
1F
100
AcDbEntity
  8
0
  6
Continuous
 62
     7
370
    25
100
AcDbCircle
 10
765.4771786029
 20
198.9784550566
 30
0.0
 40
140.0000000000001
100
AcDbArc
 50
0.0
 51
180.0
  0
LINE
  5
BE
330
1F
100
AcDbEntity
  8
0
  6
Continuous
 62
     1
370
    25
100
AcDbLine
 10
625.4771786029
 20
58.9784550566
 30
0.0
 11
905.4771786029
 21
58.9784550566
 31
0.0
  0
INSERT
  5
CA
330
1F
100
AcDbEntity
  8
FORMAT
 62
     7
100
AcDbBlockReference
  2
SW_CENTERMARKSYMBOL_2
 10
765.4771786029
 20
198.9784550566
 30
0.0
  0
LINE
  5
CB
330
1F
100
AcDbEntity
  8
0
  6
Continuous
 62
     7
370
    25
100
AcDbLine
 10
67.3074308651
 20
-657.7221973553
 30
0.0
 11
207.3074308651
 21
-657.7221973553
 31
0.0
  0
LINE
  5
CC
330
1F
100
AcDbEntity
  8
0
  6
Continuous
 62
     7
370
    25
100
AcDbLine
 10
207.3074308651
 20
-377.7221973553
 30
0.0
 11
67.3074308651
 21
-377.7221973553
 31
0.0
  0
LINE
  5
CD
330
1F
100
AcDbEntity
  8
0
  6
Continuous
 62
     7
370
    25
100
AcDbLine
 10
407.3074308651
 20
-377.7221973553
 30
0.0
 11
207.3074308651
 21
-377.7221973553
 31
0.0
  0
LINE
  5
CE
330
1F
100
AcDbEntity
  8
0
  6
Continuous
 62
     7
370
    25
100
AcDbLine
 10
207.3074308651
 20
-657.7221973553
 30
0.0
 11
407.3074308651
 21
-657.7221973553
 31
0.0
  0
ARC
  5
CF
330
1F
100
AcDbEntity
  8
0
  6
Continuous
 62
     7
370
    25
100
AcDbCircle
 10
67.3074308651
 20
-517.7221973553
 30
0.0
 40
140.0000000000001
100
AcDbArc
 50
90.0
 51
270.0
  0
LINE
  5
D0
330
1F
100
AcDbEntity
  8
0
  6
Continuous
 62
     7
370
    25
100
AcDbLine
 10
407.3074308651
 20
-377.7221973553
 30
0.0
 11
407.3074308651
 21
-657.7221973553
 31
0.0
  0
LINE
  5
D1
330
1F
100
AcDbEntity
  8
0
  6
Continuous
 62
     1
370
    25
100
AcDbLine
 10
207.3074308651
 20
-377.7221973553
 30
0.0
 11
207.3074308651
 21
-657.7221973553
 31
0.0
  0
INSERT
  5
DD
330
1F
100
AcDbEntity
  8
FORMAT
 62
     7
100
AcDbBlockReference
  2
SW_CENTERMARKSYMBOL_3
 10
67.3074308651
 20
-517.7221973553
 30
0.0
  0
LINE
  5
DE
330
1F
100
AcDbEntity
  8
0
  6
Continuous
 62
     7
370
    25
100
AcDbLine
 10
849.1502636322
 20
-242.1015829843
 30
0.0
 11
707.7289073949
 21
-323.7423941666
 31
0.0
  0
LINE
  5
DF
330
1F
100
AcDbEntity
  8
0
  6
Continuous
 62
     7
370
    25
100
AcDbLine
 10
847.7175299639
 20
-566.2360756332
 30
0.0
 11
989.1388862012
 21
-484.5952644509
 31
0.0
  0
LINE
  5
E0
330
1F
100
AcDbEntity
  8
0
  6
Continuous
 62
     7
370
    25
100
AcDbLine
 10
538.7282693133
 20
-616.4535163915
 30
0.0
 11
538.7282693133
 21
-779.7616787686
 31
0.0
  0
LINE
  5
E1
330
1F
100
AcDbEntity
  8
0
  6
Continuous
 62
     7
370
    25
100
AcDbLine
 10
818.7282693133
 20
-779.7616787686
 30
0.0
 11
818.7282693133
 21
-616.4535163915
 31
0.0
  0
SPLINE
  5
E2
330
1F
100
AcDbEntity
  8
0
  6
Continuous
 62
     7
370
    25
100
AcDbSpline
210
0.0
220
0.0
230
1.0
 70
     8
 71
     3
 72
    45
 73
    41
 74
     0
 42
0.00000001
 43
0.00000001
 40
0.0
 40
0.0
 40
0.0
 40
0.0
 40
0.0171941479840628
 40
0.0436471690229864
 40
0.0701525533081847
 40
0.0967694228666201
 40
0.1234646019827139
 40
0.1502070788611287
 40
0.1769625606217617
 40
0.2037060053059848
 40
0.2304195177612911
 40
0.257090081391879
 40
0.2837093680127983
 40
0.310273323732473
 40
0.3367816379948234
 40
0.3632371727393342
 40
0.3896454051170011
 40
0.4160139153989079
 40
0.4423519343712417
 40
0.4686699521359031
 40
0.4949793821626877
 40
0.5212922695738474
 40
0.5476197519618436
 40
0.5739715054475711
 40
0.600360037426254
 40
0.6267975545606324
 40
0.6532956783632189
 40
0.6798651169295138
 40
0.7065152771004402
 40
0.7332538042643297
 40
0.7600860422577029
 40
0.7870144151207523
 40
0.8140377472902476
 40
0.8411505602089133
 40
0.8683424109249437
 40
0.8955973688887654
 40
0.9228937535007892
 40
0.9501943329090481
 40
0.9774651441388217
 40
1.0
 40
1.0
 40
1.0
 40
1.0
 10
707.7289073948526
 20
-323.7423941665733
 30
0.0
 10
706.0419518557211
 20
-324.7307248989314
 30
0.0
 10
701.7596324515266
 20
-327.239592367435
 30
0.0
 10
694.9900879687518
 20
-331.5093408932898
 30
0.0
 10
687.4360254471258
 20
-336.5966532159205
 30
0.0
 10
679.9965017172052
 20
-341.9572344447893
 30
0.0
 10
672.6737708365081
 20
-347.5800809795925
 30
0.0
 10
665.4815679368689
 20
-353.4538138877434
 30
0.0
 10
658.4316114582476
 20
-359.5646484598906
 30
0.0
 10
651.5343186034726
 20
-365.8992546524228
 30
0.0
 10
644.7979703459197
 20
-372.4450311487982
 30
0.0
 10
638.2293410696238
 20
-379.1901760170081
 30
0.0
 10
631.8340396923121
 20
-386.1236072789961
 30
0.0
 10
625.6167082106558
 20
-393.2350470083508
 30
0.0
 10
619.5812281113781
 20
-400.5150299964109
 30
0.0
 10
613.7309228537714
 20
-407.954874445269
 30
0.0
 10
608.0687418530448
 20
-415.5466251835356
 30
0.0
 10
602.5974207317903
 20
-423.2829831852998
 30
0.0
 10
597.3196164614911
 20
-431.1572297432472
 30
0.0
 10
592.2380191948787
 20
-439.1631507082919
 30
0.0
 10
587.3554441241926
 20
-447.2949632450506
 30
0.0
 10
582.6749830524261
 20
-455.547111819665
 30
0.0
 10
578.2001393660714
 20
-463.9140212955045
 30
0.0
 10
573.9346797860169
 20
-472.3903249112691
 30
0.0
 10
569.8826161601022
 20
-480.9709457353334
 30
0.0
 10
566.0481950408855
 20
-489.651211136595
 30
0.0
 10
562.4361026317807
 20
-498.4264545073745
 30
0.0
 10
559.0515022181003
 20
-507.2919037846886
 30
0.0
 10
555.9000648638258
 20
-516.2425472365524
 30
0.0
 10
552.9879901713177
 20
-525.2729720583698
 30
0.0
 10
550.3220096606069
 20
-534.3771733453453
 30
0.0
 10
547.9093716237124
 20
-543.5483334712425
 30
0.0
 10
545.7577732018804
 20
-552.7785799628452
 30
0.0
 10
543.8753219300158
 20
-562.058726585029
 30
0.0
 10
542.2701691900315
 20
-571.3780520627154
 30
0.0
 10
540.9511127520221
 20
-580.7240294657668
 30
0.0
 10
539.9244118885617
 20
-590.081358959111
 30
0.0
 10
539.204560309437
 20
-599.4318916180812
 30
0.0
 10
538.7962230518391
 20
-608.2262503574902
 30
0.0
 10
538.74943763831
 20
-613.8906339758933
 30
0.0
 10
538.7282693132606
 20
-616.4535163914633
 30
0.0
  0
SPLINE
  5
E3
330
1F
100
AcDbEntity
  8
0
  6
Continuous
 62
     7
370
    25
100
AcDbSpline
210
0.0
220
0.0
230
1.0
 70
     8
 71
     3
 72
    39
 73
    35
 74
     0
 42
0.00000001
 43
0.00000001
 40
0.0
 40
0.0
 40
0.0
 40
0.0
 40
0.0337004916780854
 40
0.0670602339932814
 40
0.0996024538017227
 40
0.1315224320362855
 40
0.1629983838638584
 40
0.1941890025712794
 40
0.2252314126534901
 40
0.2562396090707604
 40
0.2873035041687025
 40
0.3184711354018256
 40
0.349786202040244
 40
0.381275703806448
 40
0.4129461708931126
 40
0.4447865282150488
 40
0.4767715358346586
 40
0.5088657152911792
 40
0.5410276321617355
 40
0.5732028696406497
 40
0.6053494685521454
 40
0.6374382314097772
 40
0.6694538462671943
 40
0.7013989753547085
 40
0.7332978227037255
 40
0.7651989887125468
 40
0.7971774440225725
 40
0.8293057543369221
 40
0.8617005042555345
 40
0.8945068013658103
 40
0.9278936913275295
 40
0.9620515662173731
 40
0.9971890625742864
 40
0.9999999999999999
 40
0.9999999999999999
 40
0.9999999999999999
 40
0.9999999999999999
 10
818.7268767658574
 20
-616.587596909068
 30
0.0
 10
818.7277166932622
 20
-616.5615572785754
 30
0.0
 10
818.7293880554738
 20
-616.5097413071466
 30
0.0
 10
818.7645694812772
 20
-616.0584404192138
 30
0.0
 10
818.84812430931
 20
-615.3423060784031
 30
0.0
 10
818.9975271428825
 20
-614.3506298670893
 30
0.0
 10
819.2276586417486
 20
-613.1040942537592
 30
0.0
 10
819.5520471332427
 20
-611.6157578397764
 30
0.0
 10
819.9823961217841
 20
-609.9024738831538
 30
0.0
 10
820.5285014389598
 20
-607.9823962374438
 30
0.0
 10
821.1978422578705
 20
-605.8764664749972
 30
0.0
 10
821.9953202520632
 20
-603.6081213597428
 30
0.0
 10
822.923017977237
 20
-601.2031693152
 30
0.0
 10
823.980211223204
 20
-598.6890807411404
 30
0.0
 10
825.1630466463632
 20
-596.095166123123
 30
0.0
 10
826.4643431465248
 20
-593.4523339402624
 30
0.0
 10
827.8735428434131
 20
-590.7925594465557
 30
0.0
 10
829.3767746058531
 20
-588.1482392886522
 30
0.0
 10
830.9568470976027
 20
-585.5517800676793
 30
0.0
 10
832.5936649175115
 20
-583.0345484360794
 30
0.0
 10
834.264747682599
 20
-580.6259362575505
 30
0.0
 10
835.9459949478194
 20
-578.3523521669083
 30
0.0
 10
837.6121208604278
 20
-576.2368766093791
 30
0.0
 10
839.2371528997513
 20
-574.2989172601345
 30
0.0
 10
840.7949602459202
 20
-572.5539308449015
 30
0.0
 10
842.2596824020701
 20
-571.0133282043057
 30
0.0
 10
843.6057166947451
 20
-569.6849024933543
 30
0.0
 10
844.8081039589077
 20
-568.5726213858737
 30
0.0
 10
845.8438287161356
 20
-567.6761445502019
 30
0.0
 10
846.6882969770572
 20
-566.9932544895545
 30
0.0
 10
847.3293113203744
 20
-566.5119413457195
 30
0.0
 10
847.7112796044811
 20
-566.2438611301676
 30
0.0
 10
847.8739404902667
 20
-566.1433583021164
 30
0.0
 10
847.8297546747397
 20
-566.1695906329846
 30
0.0
 10
847.8264817185154
 20
-566.1715337287399
 30
0.0
  0
LWPOLYLINE
  5
E4
330
1F
100
AcDbEntity
  8
0
  6
Continuous
 62
     7
370
    25
100
AcDbPolyline
 90
      126
 70
   128
 43
0.0
 10
820.1496255506
 20
-306.19985589
 10
820.2746604674
 20
-312.0157521014
 10
820.6494493689
 20
-317.9613190963
 10
821.2730455056
 20
-324.0215378565
 10
822.1438736198
 20
-330.1810997435
 10
823.2597339239
 20
-336.4244451694
 10
824.617807658
 20
-342.7358029018
 10
826.21466421
 20
-349.0992299034
 10
828.0462697816
 20
-355.4986516051
 10
830.1079975783
 20
-361.9179025125
 10
832.3946394966
 20
-368.3407670405
 10
834.9004192806
 20
-374.7510204761
 10
837.6190071131
 20
-381.1324699627
 10
840.5435356054
 20
-387.4689954049
 10
843.6666171445
 20
-393.7445901898
 10
846.9803625556
 20
-399.9434016201
 10
850.4764010301
 20
-406.0497709602
 10
854.1459012714
 20
-412.0482729912
 10
857.9795938034
 20
-417.9237549764
 10
861.9677943861
 20
-423.6613749384
 10
866.1004284787
 20
-429.2466391511
 10
870.3670566888
 20
-434.6654387525
 10
874.7569011432
 20
-439.9040853844
 10
879.2588727139
 20
-444.9493457709
 10
883.86159903
 20
-449.7884751463
 10
888.5534532053
 20
-454.4092494498
 10
893.3225832089
 20
-458.7999962045
 10
898.1569418047
 20
-462.9496240031
 10
903.0443169832
 20
-466.8476505255
 10
907.9723628105
 20
-470.4842290186
 10
912.9286306152
 20
-473.8501731694
 10
917.9006004347
 20
-476.9369803108
 10
922.8757126417
 20
-479.7368529002
 10
927.841399671
 20
-482.2427182163
 10
932.7851177662
 20
-484.448246226
 10
937.6943786663
 20
-486.3478655739
 10
942.5567811522
 20
-487.9367776569
 10
947.3600423733
 20
-489.2109687451
 10
952.0920288748
 20
-490.1672201211
 10
956.7407872482
 20
-490.8031162111
 10
961.2945743263
 20
-491.1170506863
 10
965.7418868478
 20
-491.1082305211
 10
970.0714905153
 20
-490.7766779958
 10
974.2724483742
 20
-490.123230641
 10
978.3341484402
 20
-489.1495391213
 10
982.2463305066
 20
-487.8580630662
 10
985.9991120619
 20
-486.2520648561
 10
989.5830132542
 20
-484.3356013819
 10
992.9889808381
 20
-482.1135137967
 10
996.2084110437
 20
-479.5914152866
 10
999.2331713112
 20
-476.7756768913
 10
1002.0556208334
 20
-473.6734114104
 10
1004.6686298579
 20
-470.2924554356
 10
1007.0655976972
 20
-466.6413495553
 10
1009.2404694024
 20
-462.7293167798
 10
1011.187751059
 20
-458.5662392433
 10
1012.9025236644
 20
-454.162633241
 10
1014.3804555542
 20
-449.5296226639
 10
1015.6178133441
 20
-444.6789108987
 10
1016.6114713611
 20
-439.6227512645
 10
1017.3589195387
 20
-434.3739160591
 10
1017.858269758
 20
-428.945664296
 10
1018.1082606169
 20
-423.3517082101
 10
1018.1082606169
 20
-417.60617862
 10
1017.858269758
 20
-411.7235892321
 10
1017.3589195387
 20
-405.7187999777
 10
1016.6114713611
 20
-399.6069794756
 10
1015.6178133441
 20
-393.403566715
 10
1014.3804555542
 20
-387.1242320546
 10
1012.9025236644
 20
-380.784837639
 10
1011.187751059
 20
-374.4013973285
 10
1009.2404694024
 20
-367.9900362474
 10
1007.0655976972
 20
-361.5669500502
 10
1004.6686298579
 20
-355.1483640101
 10
1002.0556208334
 20
-348.7504920325
 10
999.2331713112
 20
-342.3894956973
 10
996.2084110437
 20
-336.0814434332
 10
992.9889808381
 20
-329.8422699278
 10
989.5830132542
 20
-323.6877358748
 10
985.9991120619
 20
-317.6333881613
 10
982.2463305066
 20
-311.6945205952
 10
978.3341484402
 20
-305.8861352713
 10
974.2724483742
 20
-300.222904675
 10
970.0714905153
 20
-294.7191346184
 10
965.7418868478
 20
-289.3887281023
 10
961.2945743263
 20
-284.245150196
 10
956.7407872482
 20
-279.3013940239
 10
952.0920288748
 20
-274.5699479431
 10
947.3600423733
 20
-270.062763997
 10
942.5567811522
 20
-265.7912277234
 10
937.6943786663
 20
-261.7661293937
 10
932.7851177662
 20
-257.9976367556
 10
927.841399671
 20
-254.4952693485
 10
922.8757126417
 20
-251.2678744565
 10
917.9006004347
 20
-248.3236047592
 10
912.9286306152
 20
-245.6698977373
 10
907.9723628105
 20
-243.3134568852
 10
903.0443169832
 20
-241.2602347768
 10
898.1569418047
 20
-239.5154180295
 10
893.3225832089
 20
-238.0834142018
 10
888.5534532053
 20
-236.9678406596
 10
883.86159903
 20
-236.1715154385
 10
879.2588727139
 20
-235.6964501252
 10
874.7569011432
 20
-235.5438447758
 10
870.3670566888
 20
-235.7140848847
 10
866.1004284787
 20
-236.2067404107
 10
861.9677943861
 20
-237.020566863
 10
857.9795938034
 20
-238.1535084455
 10
854.1459012714
 20
-239.6027032494
 10
850.4764010301
 20
-241.3644904828
 10
846.9803625556
 20
-243.4344197184
 10
843.6666171445
 20
-245.8072621351
 10
840.5435356054
 20
-248.4770237271
 10
837.6190071131
 20
-251.4369604449
 10
834.9004192806
 20
-254.6795952316
 10
832.3946394966
 20
-258.1967369101
 10
830.1079975783
 20
-261.9795008755
 10
828.0462697816
 20
-266.0183315375
 10
826.21466421
 20
-270.3030264595
 10
824.617807658
 20
-274.8227621301
 10
823.2597339239
 20
-279.5661213049
 10
822.1438736198
 20
-284.5211218469
 10
821.2730455056
 20
-289.6752469946
 10
820.6494493689
 20
-295.0154769808
 10
820.2746604674
 20
-300.5283219208
 10
820.1496255506
 20
-306.19985589
  0
LWPOLYLINE
  5
E5
330
1F
100
AcDbEntity
  8
0
  6
Continuous
 62
     7
370
    25
100
AcDbPolyline
 90
      118
 70
   128
 43
0.0
 10
831.8875981183
 20
-312.9760432181
 10
832.0133903445
 20
-307.6401433291
 10
832.3904043317
 20
-302.4648648336
 10
833.0175530508
 20
-297.4651293995
 10
833.8930282699
 20
-292.6553525582
 10
835.0143057671
 20
-288.0494021415
 10
836.3781526092
 20
-283.6605582968
 10
837.9806364728
 20
-279.5014751971
 10
839.8171369819
 20
-275.5841445555
 10
841.8823590302
 20
-271.9198610504
 10
844.170348048
 20
-268.5191897598
 10
846.6745071705
 20
-265.3919356993
 10
849.3876162587
 20
-262.5471155519
 10
852.3018527169
 20
-259.9929316706
 10
855.4088140469
 20
-257.7367484286
 10
858.6995420748
 20
-255.7850709864
 10
862.1645487799
 20
-254.1435265352
 10
865.7938436509
 20
-252.8168480726
 10
869.5769624912
 20
-251.8088607562
 10
873.5029975897
 20
-251.1224708741
 10
877.5606291709
 20
-250.7596574663
 10
881.7381580327
 20
-250.7214666176
 10
886.0235392778
 20
-251.0080084422
 10
890.4044170427
 20
-251.6184567657
 10
894.8681601228
 20
-252.5510515077
 10
899.4018983912
 20
-253.8031037561
 10
903.9925599069
 20
-255.3710035201
 10
908.6269086043
 20
-257.2502301389
 10
913.2915824564
 20
-259.4353653156
 10
917.9731320009
 20
-261.9201087397
 10
922.6580591186
 20
-264.6972962529
 10
927.3328559518
 20
-267.7589205046
 10
931.984043851
 20
-271.0961540394
 10
936.5982122376
 20
-274.6993747493
 10
941.1620572695
 20
-278.558193616
 10
945.6624202001
 20
-282.6614846659
 10
950.086325318
 20
-286.9974170487
 10
954.4210173595
 20
-291.5534891488
 10
958.6539982854
 20
-296.3165646309
 10
962.7730633159
 20
-301.2729103155
 10
966.7663361201
 20
-306.4082357747
 10
970.6223030589
 20
-311.7077345361
 10
974.3298463813
 20
-317.1561267726
 10
977.8782762801
 20
-322.7377033591
 10
981.2573617135
 20
-328.4363711654
 10
984.4573599032
 20
-334.2356994569
 10
987.4690444262
 20
-340.118967269
 10
990.2837318164
 20
-346.0692116174
 10
992.8933066012
 20
-352.0692764074
 10
995.2902447012
 20
-358.1018618989
 10
997.4676351232
 20
-364.1495745864
 10
999.419199887
 20
-370.1949773485
 10
1001.1393121262
 20
-376.2206397241
 10
1002.623012312
 20
-382.2091881687
 10
1003.8660225524
 20
-388.1433561469
 10
1004.8647589274
 20
-394.0060339162
 10
1005.6163418214
 20
-399.7803178589
 10
1006.1186042262
 20
-405.4495592196
 10
1006.3700979894
 20
-410.9974121079
 10
1006.3700979894
 20
-416.4078806276
 10
1006.1186042262
 20
-421.6653649975
 10
1005.6163418214
 20
-426.7547065291
 10
1004.8647589274
 20
-431.6612313332
 10
1003.8660225524
 20
-436.3707926287
 10
1002.623012312
 20
-440.8698115312
 10
1001.1393121262
 20
-445.1453162046
 10
999.419199887
 20
-449.184979262
 10
997.4676351232
 20
-452.9771533091
 10
995.2902447012
 20
-456.5109045265
 10
992.8933066012
 20
-459.7760441946
 10
990.2837318164
 20
-462.7631580704
 10
987.4690444262
 20
-465.4636335315
 10
984.4573599032
 20
-467.8696844079
 10
981.2573617135
 20
-469.9743734321
 10
977.8782762801
 20
-471.7716322409
 10
974.3298463813
 20
-473.2562788718
 10
970.6223030589
 20
-474.4240327043
 10
966.7663361201
 20
-475.2715268017
 10
962.7730633159
 20
-475.7963176192
 10
958.6539982854
 20
-475.996892049
 10
954.4210173595
 20
-475.8726717831
 10
950.086325318
 20
-475.4240149807
 10
945.6624202001
 20
-474.6522152354
 10
941.1620572695
 20
-473.5594978459
 10
936.5982122376
 20
-472.149013399
 10
931.984043851
 20
-470.4248286868
 10
927.3328559518
 20
-468.3919149799
 10
922.6580591186
 20
-466.056133695
 10
917.9731320009
 20
-463.424219494
 10
913.2915824564
 20
-460.5037608671
 10
908.6269086043
 20
-457.3031782524
 10
903.9925599069
 20
-453.8316997581
 10
899.4018983912
 20
-450.0993345554
 10
894.8681601228
 20
-446.1168440195
 10
890.4044170427
 20
-441.8957107014
 10
886.0235392778
 20
-437.4481052213
 10
881.7381580327
 20
-432.786851177
 10
877.5606291709
 20
-427.9253881708
 10
873.5029975897
 20
-422.8777330589
 10
869.5769624912
 20
-417.6584395377
 10
865.7938436509
 20
-412.2825561816
 10
862.1645487799
 20
-406.7655830539
 10
858.6995420748
 20
-401.1234270164
 10
855.4088140469
 20
-395.3723558654
 10
852.3018527169
 20
-389.5289514281
 10
849.3876162587
 20
-383.6100617519
 10
846.6745071705
 20
-377.6327525281
 10
844.170348048
 20
-371.6142578865
 10
841.8823590302
 20
-365.5719307053
 10
839.8171369819
 20
-359.5231925778
 10
837.9806364728
 20
-353.4854835819
 10
836.3781526092
 20
-347.4762119956
 10
835.0143057671
 20
-341.5127041046
 10
833.8930282699
 20
-335.612154246
 10
833.0175530508
 20
-329.7915752323
 10
832.3904043317
 20
-324.0677492997
 10
832.0133903445
 20
-318.4571797202
 10
831.8875981183
 20
-312.9760432181
  0
LWPOLYLINE
  5
E6
330
1F
100
AcDbEntity
  8
0
  6
Continuous
 62
     7
370
    25
100
AcDbPolyline
 90
      126
 70
   128
 43
0.0
 10
579.7333199471
 20
-722.613110941
 10
584.8322885981
 20
-719.8139012366
 10
590.1684466454
 20
-717.1661248211
 10
595.7283144907
 20
-714.6764702073
 10
601.4978474253
 20
-712.351226479
 10
607.4624711082
 20
-710.1962674035
 10
613.6071183824
 20
-708.2170365946
 10
619.9162673356
 20
-706.4185337611
 10
626.37398051
 20
-704.8053020771
 10
632.9639451616
 20
-703.381416706
 10
639.6695144678
 20
-702.1504745058
 10
646.4737495785
 20
-701.1155849432
 10
653.3594624055
 20
-700.2793622392
 10
660.3092590403
 20
-699.6439187648
 10
667.3055836937
 20
-699.2108597054
 10
674.3307630423
 20
-698.9812790059
 10
681.3670508734
 20
-698.9557566069
 10
688.3966729133
 20
-699.1343569803
 10
695.4018717265
 20
-699.516628966
 10
702.364951573
 20
-700.1016069118
 10
709.2683231088
 20
-700.8878131126
 10
716.0945478181
 20
-701.8732615434
 10
722.826382065
 20
-703.0554628759
 10
729.4468206519
 20
-704.4314307669
 10
735.9391397763
 20
-705.9976894021
 10
742.2869392768
 20
-707.7502822763
 10
748.4741840608
 20
-709.6847821878
 10
754.485244611
 20
-711.7963024218
 10
760.3049364669
 20
-714.0795090951
 10
765.9185585816
 20
-716.5286346294
 10
771.3119304586
 20
-719.137492321
 10
776.4714279723
 20
-721.8994919691
 10
781.3840177844
 20
-724.8076565228
 10
786.0372902666
 20
-727.854639706
 10
790.4194908487
 20
-731.0327445748
 10
794.5195497117
 20
-734.3339429604
 10
798.3271097512
 20
-737.7498957493
 10
801.8325527399
 20
-741.2719739482
 10
805.0270236248
 20
-744.8912804819
 10
807.9024528951
 20
-748.598672668
 10
810.4515769669
 20
-752.3847853121
 10
812.6679565315
 20
-756.2400543651
 10
814.5459928219
 20
-760.1547410827
 10
816.0809417553
 20
-764.1189566265
 10
817.2689259176
 20
-768.1226870441
 10
818.1069443577
 20
-772.1558185649
 10
818.5928801682
 20
-776.2081631486
 10
818.7255058331
 20
-780.2694842213
 10
818.5044863285
 20
-784.3295225332
 10
817.9303799688
 20
-788.3780220754
 10
817.0046369966
 20
-792.4047559866
 10
815.7295959188
 20
-796.3995523875
 10
814.1084776
 20
-800.3523200757
 10
812.1453771257
 20
-804.2530740169
 10
809.845253458
 20
-808.0919605681
 10
807.213916909
 20
-811.8592823688
 10
804.2580144632
 20
-815.5455228371
 10
800.9850129866
 20
-819.1413702097
 10
797.4031803652
 20
-822.637741064
 10
793.5215646188
 20
-826.0258032638
 10
789.3499710459
 20
-829.29699827
 10
784.8989374537
 20
-832.4430627601
 10
780.1797075394
 20
-835.4560495021
 10
775.2042024875
 20
-838.32834743
 10
769.9849908554
 20
-841.05270087
 10
764.5352568247
 20
-843.6222278688
 10
758.8687668965
 20
-846.0304375783
 10
752.9998351162
 20
-848.2712466517
 10
746.9432869148
 20
-850.3389946109
 10
740.7144216587
 20
-852.2284581449
 10
734.3289740021
 20
-853.934864305
 10
727.80307414
 20
-855.4539025611
 10
721.1532070618
 20
-856.7817356907
 10
714.3961709089
 20
-857.9150094721
 10
707.549034541
 20
-858.8508611574
 10
700.6290944189
 20
-859.586926704
 10
693.6538309118
 20
-860.1213467465
 10
686.6408641407
 20
-860.4527712933
 10
679.6079094684
 20
-860.5803631375
 10
672.5727327488
 20
-860.5037999708
 10
665.5531054487
 20
-860.2232751985
 10
658.5667597559
 20
-859.7394974506
 10
651.6313437861
 20
-859.0536887915
 10
644.7643770019
 20
-858.1675816336
 10
637.9832059573
 20
-857.0834143603
 10
631.3049604789
 20
-855.8039256723
 10
624.7465103944
 20
-854.3323476691
 10
618.3244229179
 20
-852.6723976844
 10
612.0549207997
 20
-850.8282688959
 10
605.9538413464
 20
-848.8046197331
 10
600.036596414
 20
-846.6065621093
 10
594.3181334768
 20
-844.2396485088
 10
588.8128978685
 20
-841.7098579609
 10
583.5347962921
 20
-839.023580936
 10
578.4971616902
 20
-836.1876032029
 10
573.712719565
 20
-833.2090886877
 10
569.1935558325
 20
-830.0955613764
 10
564.9510862926
 20
-826.8548863093
 10
560.9960277915
 20
-823.4952497128
 10
557.3383711502
 20
-820.0251383205
 10
553.9873559269
 20
-816.4533179351
 10
550.9514470768
 20
-812.7888112847
 10
548.2383135691
 20
-809.0408752312
 10
545.8548090146
 20
-805.2189773864
 10
543.8069543527
 20
-801.3327721958
 10
542.0999226418
 20
-797.3920765512
 10
540.7380259924
 20
-793.4068449917
 10
539.7247046735
 20
-789.387144558
 10
539.0625184227
 20
-785.3431293624
 10
538.7531399799
 20
-781.2850149382
 10
538.7973508621
 20
-777.2230524346
 10
539.1950393885
 20
-773.1675027214
 10
539.9452009635
 20
-769.1286104693
 10
541.0459406139
 20
-765.1165782705
 10
542.4944777758
 20
-761.1415408665
 10
544.2871533185
 20
-757.2135395469
 10
546.4194387881
 20
-753.3424967839
 10
548.8859478464
 20
-749.5381911675
 10
551.6804498775
 20
-745.8102327038
 10
554.7958857267
 20
-742.1680385394
 10
558.2243855327
 20
-738.6208091729
 10
561.9572886074
 20
-735.1775052135
 10
565.9851653137
 20
-731.8468247459
 10
570.2978408854
 20
-728.637181358
 10
574.8844211298
 20
-725.5566828875
 10
579.7333199471
 20
-722.613110941
  0
LWPOLYLINE
  5
E7
330
1F
100
AcDbEntity
  8
0
  6
Continuous
 62
     7
370
    25
100
AcDbPolyline
 90
      118
 70
   128
 43
0.0
 10
591.4712925148
 20
-729.3892982692
 10
586.9134243085
 20
-732.165736191
 10
582.6202820685
 20
-735.0794055365
 10
578.6042440354
 20
-738.1219054427
 10
574.8768894864
 20
-741.2844635948
 10
571.4489653497
 20
-744.5579615189
 10
568.3303552179
 20
-747.932960873
 10
565.5300508513
 20
-751.3997306604
 10
563.0561262524
 20
-754.9482752863
 10
560.9157143861
 20
-758.568363378
 10
559.114986614
 20
-762.2495572842
 10
557.6591349005
 20
-765.9812431701
 10
556.5523568429
 20
-769.7526616192
 10
555.7978435687
 20
-773.5529386558
 10
555.3977705353
 20
-777.3711170974
 10
555.3532912565
 20
-781.1961881471
 10
555.6645339778
 20
-785.017123135
 10
556.3306013058
 20
-788.8229053162
 10
557.349572796
 20
-792.6025616357
 10
558.7185104897
 20
-796.3451943656
 10
560.4334673853
 20
-800.0400125271
 10
562.4894988179
 20
-803.6763630029
 10
564.8806767169
 20
-807.2437612532
 10
567.6001066972
 20
-810.7319215454
 10
570.6399479383
 20
-814.1307866103
 10
573.9914357909
 20
-817.4305566402
 10
577.644907048
 20
-820.6217175437
 10
581.5898278061
 20
-823.6950683779
 10
585.8148238375
 20
-826.6417478768
 10
590.3077133848
 20
-829.4532600005
 10
595.0555422845
 20
-832.1214984317
 10
600.0446213166
 20
-834.6387699484
 10
605.260565675
 20
-836.9978166052
 10
610.6883364416
 20
-839.1918366597
 10
616.3122839483
 20
-841.2145041842
 10
622.1161928986
 20
-843.0599873046
 10
628.0833291204
 20
-844.7229650154
 10
634.1964878153
 20
-846.1986425213
 10
640.4380431643
 20
-847.4827650621
 10
646.7899991476
 20
-848.57163018
 10
653.2340414317
 20
-849.462098395
 10
659.7515901745
 20
-850.1516022568
 10
666.3238535957
 20
-850.6381537472
 10
672.9318821586
 20
-850.9203500123
 10
679.5566232063
 20
-850.9973774073
 10
686.1789758952
 20
-850.8690138421
 10
692.7798462682
 20
-850.5356294223
 10
699.3402023074
 20
-849.9981853814
 10
705.8411288078
 20
-849.2582313097
 10
712.2638819156
 20
-848.3179006863
 10
718.5899431709
 20
-847.1799047278
 10
724.8010729013
 20
-845.8475245712
 10
730.8793628121
 20
-844.3246018135
 10
736.8072876198
 20
-842.615527435
 10
742.5677555828
 20
-840.7252291398
 10
748.1441577806
 20
-838.6591571471
 10
753.5204160021
 20
-836.4232684774
 10
758.6810291032
 20
-834.0240097765
 10
763.6111177003
 20
-831.4682987282
 10
768.2964670717
 20
-828.7635041093
 10
772.7235681423
 20
-825.9174245427
 10
776.8796564337
 20
-822.9382660126
 10
780.7527488674
 20
-819.8346182043
 10
784.3316783153
 20
-816.6154297379
 10
787.6061257972
 20
-813.289982367
 10
790.5666502336
 20
-809.8678642173
 10
793.2047156659
 20
-806.3589421413
 10
795.5127158687
 20
-802.7733332698
 10
797.4839962799
 20
-799.1213758412
 10
799.1128731878
 20
-795.4135993943
 10
800.3946501185
 20
-791.6606944084
 10
801.3256313774
 20
-787.8734814801
 10
801.9031327044
 20
-784.0628801247
 10
802.1254890138
 20
-780.2398772923
 10
801.9920591948
 20
-776.4154956898
 10
801.50322796
 20
-772.6007619993
 10
800.6604047365
 20
-768.8066750856
 10
799.4660196017
 20
-765.0441742835
 10
797.9235162773
 20
-761.3241078567
 10
796.0373421997
 20
-757.6572017199
 10
793.8129356968
 20
-754.0540285126
 10
791.2567103087
 20
-750.524977116
 10
788.3760362947
 20
-747.0802226988
 10
785.1792193838
 20
-743.7296973797
 10
781.6754768267
 20
-740.4830615907
 10
777.8749108203
 20
-737.3496762231
 10
773.7884793801
 20
-734.3385756381
 10
769.4279647458
 20
-731.4584416182
 10
764.8059394101
 20
-728.7175783353
 10
759.9357298684
 20
-726.1238884079
 10
754.8313781956
 20
-723.6848501154
 10
749.507601559
 20
-721.4074958366
 10
743.9797497847
 20
-719.2983917734
 10
738.2637611005
 20
-717.3636190189
 10
732.3761161814
 20
-715.6087560237
 10
726.3337906318
 20
-714.0388625122
 10
720.1542060406
 20
-712.6584648937
 10
713.8551797498
 20
-711.471543212
 10
707.4548734828
 20
-710.4815196694
 10
700.9717409795
 20
-709.6912487602
 10
694.4244747892
 20
-709.10300904
 10
687.8319523752
 20
-708.7184965561
 10
681.2131816862
 20
-708.5388199576
 10
674.5872463516
 20
-708.5644972987
 10
667.9732506582
 20
-708.7954545449
 10
661.3902644677
 20
-709.2310257866
 10
654.8572682336
 20
-709.8699551593
 10
648.393098275
 20
-710.7104004641
 10
642.0163924675
 20
-711.7499384798
 10
635.7455365046
 20
-712.985571949
 10
629.5986108874
 20
-714.4137382205
 10
623.5933387938
 20
-716.0303195215
 10
617.7470349776
 20
-717.8306548294
 10
612.0765558464
 20
-719.8095533115
 10
606.5982508594
 20
-721.9613092912
 10
601.327915388
 20
-724.2797186989
 10
596.2807451737
 20
-726.7580969603
 10
591.4712925148
 20
-729.3892982692
  0
LWPOLYLINE
  5
E8
330
1F
100
AcDbEntity
  8
0
  6
Continuous
 62
     1
370
    25
100
AcDbPolyline
 90
       17
 70
   128
 43
0.0
 10
777.7232186794
 20
-559.3049485639
 10
782.6971524135
 20
-562.0319536823
 10
787.6585215594
 20
-564.4632987353
 10
792.5947932679
 20
-566.5928419341
 10
797.4934980883
 20
-568.4152038677
 10
802.3422614671
 20
-569.9257810919
 10
807.1288350072
 20
-571.1207577574
 10
811.8411274084
 20
-571.9971152495
 10
816.4672350112
 20
-572.552639813
 10
820.9954718661
 20
-572.7859281448
 10
825.414399254
 20
-572.6963909382
 10
829.7128545808
 20
-572.284254372
 10
833.8799795752
 20
-571.550559539
 10
837.9052477178
 20
-570.4971598159
 10
841.778490832
 20
-569.1267161819
 10
845.4899247695
 20
-567.4426904966
 10
847.7175299639
 20
-566.2360756332
  0
LWPOLYLINE
  5
E9
330
1F
100
AcDbEntity
  8
0
  6
Continuous
 62
     1
370
    25
100
AcDbPolyline
 90
       48
 70
   128
 43
0.0
 10
707.7289073949
 20
-323.7423941666
 10
704.7131449697
 20
-325.6402645677
 10
701.4462992249
 20
-328.0879282884
 10
698.3721355985
 20
-330.8308948551
 10
695.4984196948
 20
-333.8622352964
 10
692.8324107694
 20
-337.1742921832
 10
690.3808433923
 20
-340.7586989723
 10
688.1499104354
 20
-344.6064011412
 10
686.1452474291
 20
-348.7076790601
 10
684.3719183259
 20
-353.0521725451
 10
682.8344027093
 20
-357.6289070287
 10
681.536584477
 20
-362.4263212824
 10
680.4817420305
 20
-367.4322966213
 10
679.6725399934
 20
-372.6341875172
 10
679.1110224804
 20
-378.0188535425
 10
678.7986079332
 20
-383.5726925632
 10
678.7360855383
 20
-389.2816751001
 10
678.9236132326
 20
-395.1313797679
 10
679.3607173048
 20
-401.1070297047
 10
680.0462935923
 20
-407.1935299003
 10
680.9786102696
 20
-413.375505327
 10
682.1553122241
 20
-419.6373397782
 10
683.5734270044
 20
-425.9632153168
 10
685.2293723296
 20
-432.337152232
 10
687.118965138
 20
-438.7430494062
 10
689.2374321542
 20
-445.1647249869
 10
691.5794219467
 20
-451.5859572645
 10
694.1390184459
 20
-457.9905256489
 10
696.9097558891
 20
-464.3622516445
 10
699.8846351529
 20
-470.6850397184
 10
703.0561414341
 20
-476.9429179593
 10
706.4162632326
 20
-483.1200784236
 10
709.9565125892
 20
-489.2009170679
 10
713.6679465268
 20
-495.1700731659
 10
717.541189641
 20
-501.0124681114
 10
721.5664577836
 20
-506.7133435077
 10
725.733582778
 20
-512.2582984487
 10
730.0320381047
 20
-517.633325897
 10
734.4509654926
 20
-522.8248480669
 10
738.9792023476
 20
-527.8197507227
 10
743.6053099503
 20
-532.6054163068
 10
748.3176023515
 20
-537.1697558127
 10
753.1041758916
 20
-541.5012393226
 10
757.9529392704
 20
-545.5889251332
 10
762.8516440909
 20
-549.4224873954
 10
767.7879157994
 20
-552.9922421983
 10
772.7492849452
 20
-556.2891720315
 10
777.7232186794
 20
-559.3049485639
  0
LWPOLYLINE
  5
EA
330
1F
100
AcDbEntity
  8
0
  6
Continuous
 62
     1
370
    25
100
AcDbPolyline
 90
       17
 70
   128
 43
0.0
 10
777.7232186794
 20
-559.3049485639
 10
782.5721174967
 20
-562.2485205104
 10
787.1586977411
 20
-565.3290189808
 10
791.4713733128
 20
-568.5386623688
 10
795.4992500191
 20
-571.8693428363
 10
799.2321530938
 20
-575.3126467957
 10
802.6606528998
 20
-578.8598761622
 10
805.776088749
 20
-582.5020703266
 10
808.5705907801
 20
-586.2300287903
 10
811.0370998384
 20
-590.0343344068
 10
813.169385308
 20
-593.9053771698
 10
814.9620608508
 20
-597.8333784894
 10
816.4105980126
 20
-601.8084158933
 10
817.511337663
 20
-605.8204480921
 10
818.261499238
 20
-609.8593403443
 10
818.6591877645
 20
-613.9148900574
 10
818.7282693133
 20
-616.4535163915
  0
LWPOLYLINE
  5
EB
330
1F
100
AcDbEntity
  8
0
  6
Continuous
 62
     1
370
    25
100
AcDbPolyline
 90
       48
 70
   128
 43
0.0
 10
538.7282693133
 20
-616.4535163915
 10
538.8636584583
 20
-612.9000007715
 10
539.3495942688
 20
-608.8476561877
 10
540.1876127089
 20
-604.8145246669
 10
541.3755968712
 20
-600.8107942494
 10
542.9105458046
 20
-596.8465787055
 10
544.788582095
 20
-592.9318919879
 10
547.0049616597
 20
-589.076622935
 10
549.5540857314
 20
-585.2905102909
 10
552.4295150017
 20
-581.5831181047
 10
555.6239858866
 20
-577.963811571
 10
559.1294288754
 20
-574.4417333721
 10
562.9369889148
 20
-571.0257805832
 10
567.0370477779
 20
-567.7245821976
 10
571.41924836
 20
-564.5464773288
 10
576.0725208421
 20
-561.4994941456
 10
580.9851106542
 20
-558.5913295919
 10
586.144608168
 20
-555.8293299439
 10
591.5379800449
 20
-553.2204722522
 10
597.1516021597
 20
-550.7713467179
 10
602.9712940155
 20
-548.4881400447
 10
608.9823545657
 20
-546.3766198106
 10
615.1695993497
 20
-544.4421198992
 10
621.5173988502
 20
-542.689527025
 10
628.0097179746
 20
-541.1232683898
 10
634.6301565615
 20
-539.7473004988
 10
641.3619908084
 20
-538.5650991663
 10
648.1882155177
 20
-537.5796507355
 10
655.0915870535
 20
-536.7934445346
 10
662.0546669
 20
-536.2084665888
 10
669.0598657132
 20
-535.8261946031
 10
676.0894877531
 20
-535.6475942298
 10
683.1257755842
 20
-535.6731166287
 10
690.1509549328
 20
-535.9026973283
 10
697.1472795862
 20
-536.3357563876
 10
704.0970762211
 20
-536.971199862
 10
710.982789048
 20
-537.807422566
 10
717.7870241588
 20
-538.8423121286
 10
724.492593465
 20
-540.0732543289
 10
731.0825581166
 20
-541.4971397
 10
737.5402712909
 20
-543.1103713839
 10
743.8494202441
 20
-544.9088742175
 10
749.9940675183
 20
-546.8881050264
 10
755.9586912012
 20
-549.0430641018
 10
761.7282241358
 20
-551.3683078301
 10
767.2880919811
 20
-553.8579624439
 10
772.6242500284
 20
-556.5057388595
 10
777.7232186794
 20
-559.3049485639
  0
ENDSEC
  0
SECTION
  2
OBJECTS
  0
DICTIONARY
  5
C
330
0
100
AcDbDictionary
281
     1
  3
ACAD_GROUP
350
D
  3
ACAD_LAYOUT
350
1A
  3
ACAD_MLINESTYLE
350
17
  3
ACAD_PLOTSETTINGS
350
19
  3
ACAD_PLOTSTYLENAME
350
E
  3
ACAD_SCALELIST
350
47
  3
DWGPROPS
350
EC
  0
DICTIONARY
  5
D
102
{ACAD_REACTORS
330
C
102
}
330
C
100
AcDbDictionary
281
     1
  0
DICTIONARY
  5
1A
102
{ACAD_REACTORS
330
C
102
}
330
C
100
AcDbDictionary
281
     1
  3
Layout1
350
1E
  3
Layout2
350
26
  3
Model
350
22
  0
DICTIONARY
  5
17
102
{ACAD_REACTORS
330
C
102
}
330
C
100
AcDbDictionary
281
     1
  3
Standard
350
18
  0
DICTIONARY
  5
19
102
{ACAD_REACTORS
330
C
102
}
330
C
100
AcDbDictionary
281
     1
  0
ACDBDICTIONARYWDFLT
  5
E
102
{ACAD_REACTORS
330
C
102
}
330
C
100
AcDbDictionary
281
     1
  3
Normal
350
F
100
AcDbDictionaryWithDefault
340
F
  0
DICTIONARY
  5
47
102
{ACAD_REACTORS
330
C
102
}
330
C
100
AcDbDictionary
281
     1
  3
A0
350
48
  3
A1
350
49
  3
A2
350
4A
  3
A3
350
4B
  3
A4
350
4C
  3
A5
350
4D
  3
A6
350
4E
  3
A7
350
4F
  3
A8
350
50
  3
A9
350
51
  3
B0
350
52
  3
B1
350
53
  3
B2
350
54
  3
B3
350
55
  3
B4
350
56
  3
B5
350
57
  3
B6
350
58
  3
B7
350
59
  3
B8
350
5A
  3
B9
350
5B
  3
C0
350
5C
  3
C1
350
5D
  3
C2
350
5E
  3
C3
350
5F
  3
C4
350
60
  3
C5
350
61
  3
C6
350
62
  3
C7
350
63
  3
C8
350
64
  3
C9
350
65
  3
D0
350
66
  3
D1
350
67
  3
D2
350
68
  0
XRECORD
  5
EC
102
{ACAD_REACTORS
330
C
102
}
330
C
100
AcDbXrecord
280
     1
  1
DWGPROPS COOKIE
  2

  3

  4

  6

  7

  8
b.kav
  9

300
=
301
=
302
=
303
=
304
=
305
=
306
=
307
=
308
=
309
=
 40
0.0
 41
2459935.574909317
 42
2459935.574909491
  1

 90
        0
  0
LAYOUT
  5
1E
102
{ACAD_REACTORS
330
1A
102
}
330
1A
100
AcDbPlotSettings
  1

  2
none_device
  4

  6

 40
0.0
 41
0.0
 42
0.0
 43
0.0
 44
0.0
 45
0.0
 46
0.0
 47
0.0
 48
0.0
 49
0.0
140
0.0
141
0.0
142
1.0
143
1.0
 70
   688
 72
     1
 73
     0
 74
     5
  7

 75
    16
147
1.0
148
0.0
149
0.0
100
AcDbLayout
  1
Layout1
 70
     1
 71
     1
 10
0.0
 20
0.0
 11
420.0
 21
297.0
 12
0.0
 22
0.0
 32
0.0
 14
1.0000000000E+20
 24
1.0000000000E+20
 34
1.0000000000E+20
 15
-1.0000000000E+20
 25
-1.0000000000E+20
 35
-1.0000000000E+20
146
0.0
 13
0.0
 23
0.0
 33
0.0
 16
1.0
 26
0.0
 36
0.0
 17
0.0
 27
1.0
 37
0.0
 76
     0
330
1B
  0
LAYOUT
  5
26
102
{ACAD_REACTORS
330
1A
102
}
330
1A
100
AcDbPlotSettings
  1

  2
none_device
  4

  6

 40
0.0
 41
0.0
 42
0.0
 43
0.0
 44
0.0
 45
0.0
 46
0.0
 47
0.0
 48
0.0
 49
0.0
140
0.0
141
0.0
142
1.0
143
1.0
 70
   688
 72
     1
 73
     0
 74
     5
  7

 75
    16
147
1.0
148
0.0
149
0.0
100
AcDbLayout
  1
Layout2
 70
     1
 71
     2
 10
0.0
 20
0.0
 11
0.0
 21
0.0
 12
0.0
 22
0.0
 32
0.0
 14
0.0
 24
0.0
 34
0.0
 15
0.0
 25
0.0
 35
0.0
146
0.0
 13
0.0
 23
0.0
 33
0.0
 16
1.0
 26
0.0
 36
0.0
 17
0.0
 27
1.0
 37
0.0
 76
     0
330
23
  0
LAYOUT
  5
22
102
{ACAD_REACTORS
330
1A
102
}
330
1A
100
AcDbPlotSettings
  1

  2
none_device
  4
Letter_(8.50_x_11.00_Inches)
  6

 40
6.35
 41
6.35
 42
6.35000508
 43
6.35000508
 44
215.9
 45
279.4
 46
0.0
 47
0.0
 48
0.0
 49
0.0
140
0.0
141
0.0
142
1.0
143
1.0
 70
  1712
 72
     1
 73
     0
 74
     0
  7

 75
     0
147
1.0
148
0.0
149
0.0
100
AcDbLayout
  1
Model
 70
     1
 71
     0
 10
0.0
 20
0.0
 11
279.4
 21
215.9
 12
0.0
 22
0.0
 32
0.0
 14
0.0
 24
0.0
 34
0.0
 15
279.4
 25
215.9
 35
0.0
146
0.0
 13
0.0
 23
0.0
 33
0.0
 16
1.0
 26
0.0
 36
0.0
 17
0.0
 27
1.0
 37
0.0
 76
     0
330
1F
331
29
  0
MLINESTYLE
  5
18
102
{ACAD_REACTORS
330
17
102
}
330
17
100
AcDbMlineStyle
  2
Standard
 70
     0
  3

 62
   256
 51
90.0
 52
90.0
 71
     2
 49
0.5
 62
   256
  6
BYLAYER
 49
-0.5
 62
   256
  6
BYLAYER
  0
ACDBPLACEHOLDER
  5
F
102
{ACAD_REACTORS
330
E
102
}
330
E
  0
SCALE
  5
48
102
{ACAD_REACTORS
330
47
102
}
330
47
100
AcDbScale
 70
     0
300
1:1
140
1.0
141
1.0
290
     1
  0
SCALE
  5
49
102
{ACAD_REACTORS
330
47
102
}
330
47
100
AcDbScale
 70
     0
300
1:2
140
1.0
141
2.0
290
     0
  0
SCALE
  5
4A
102
{ACAD_REACTORS
330
47
102
}
330
47
100
AcDbScale
 70
     0
300
1:4
140
1.0
141
4.0
290
     0
  0
SCALE
  5
4B
102
{ACAD_REACTORS
330
47
102
}
330
47
100
AcDbScale
 70
     0
300
1:5
140
1.0
141
5.0
290
     0
  0
SCALE
  5
4C
102
{ACAD_REACTORS
330
47
102
}
330
47
100
AcDbScale
 70
     0
300
1:8
140
1.0
141
8.0
290
     0
  0
SCALE
  5
4D
102
{ACAD_REACTORS
330
47
102
}
330
47
100
AcDbScale
 70
     0
300
1:10
140
1.0
141
10.0
290
     0
  0
SCALE
  5
4E
102
{ACAD_REACTORS
330
47
102
}
330
47
100
AcDbScale
 70
     0
300
1:16
140
1.0
141
16.0
290
     0
  0
SCALE
  5
4F
102
{ACAD_REACTORS
330
47
102
}
330
47
100
AcDbScale
 70
     0
300
1:20
140
1.0
141
20.0
290
     0
  0
SCALE
  5
50
102
{ACAD_REACTORS
330
47
102
}
330
47
100
AcDbScale
 70
     0
300
1:30
140
1.0
141
30.0
290
     0
  0
SCALE
  5
51
102
{ACAD_REACTORS
330
47
102
}
330
47
100
AcDbScale
 70
     0
300
1:40
140
1.0
141
40.0
290
     0
  0
SCALE
  5
52
102
{ACAD_REACTORS
330
47
102
}
330
47
100
AcDbScale
 70
     0
300
1:50
140
1.0
141
50.0
290
     0
  0
SCALE
  5
53
102
{ACAD_REACTORS
330
47
102
}
330
47
100
AcDbScale
 70
     0
300
1:100
140
1.0
141
100.0
290
     0
  0
SCALE
  5
54
102
{ACAD_REACTORS
330
47
102
}
330
47
100
AcDbScale
 70
     0
300
2:1
140
2.0
141
1.0
290
     0
  0
SCALE
  5
55
102
{ACAD_REACTORS
330
47
102
}
330
47
100
AcDbScale
 70
     0
300
4:1
140
4.0
141
1.0
290
     0
  0
SCALE
  5
56
102
{ACAD_REACTORS
330
47
102
}
330
47
100
AcDbScale
 70
     0
300
8:1
140
8.0
141
1.0
290
     0
  0
SCALE
  5
57
102
{ACAD_REACTORS
330
47
102
}
330
47
100
AcDbScale
 70
     0
300
10:1
140
10.0
141
1.0
290
     0
  0
SCALE
  5
58
102
{ACAD_REACTORS
330
47
102
}
330
47
100
AcDbScale
 70
     0
300
100:1
140
100.0
141
1.0
290
     0
  0
SCALE
  5
59
102
{ACAD_REACTORS
330
47
102
}
330
47
100
AcDbScale
 70
     0
300
1/128" = 1'-0"
140
0.0078125
141
12.0
290
     0
  0
SCALE
  5
5A
102
{ACAD_REACTORS
330
47
102
}
330
47
100
AcDbScale
 70
     0
300
1/64" = 1'-0"
140
0.015625
141
12.0
290
     0
  0
SCALE
  5
5B
102
{ACAD_REACTORS
330
47
102
}
330
47
100
AcDbScale
 70
     0
300
1/32" = 1'-0"
140
0.03125
141
12.0
290
     0
  0
SCALE
  5
5C
102
{ACAD_REACTORS
330
47
102
}
330
47
100
AcDbScale
 70
     0
300
1/16" = 1'-0"
140
0.0625
141
12.0
290
     0
  0
SCALE
  5
5D
102
{ACAD_REACTORS
330
47
102
}
330
47
100
AcDbScale
 70
     0
300
3/32" = 1'-0"
140
0.09375
141
12.0
290
     0
  0
SCALE
  5
5E
102
{ACAD_REACTORS
330
47
102
}
330
47
100
AcDbScale
 70
     0
300
1/8" = 1'-0"
140
0.125
141
12.0
290
     0
  0
SCALE
  5
5F
102
{ACAD_REACTORS
330
47
102
}
330
47
100
AcDbScale
 70
     0
300
3/16" = 1'-0"
140
0.1875
141
12.0
290
     0
  0
SCALE
  5
60
102
{ACAD_REACTORS
330
47
102
}
330
47
100
AcDbScale
 70
     0
300
1/4" = 1'-0"
140
0.25
141
12.0
290
     0
  0
SCALE
  5
61
102
{ACAD_REACTORS
330
47
102
}
330
47
100
AcDbScale
 70
     0
300
3/8" = 1'-0"
140
0.375
141
12.0
290
     0
  0
SCALE
  5
62
102
{ACAD_REACTORS
330
47
102
}
330
47
100
AcDbScale
 70
     0
300
1/2" = 1'-0"
140
0.5
141
12.0
290
     0
  0
SCALE
  5
63
102
{ACAD_REACTORS
330
47
102
}
330
47
100
AcDbScale
 70
     0
300
3/4" = 1'-0"
140
0.75
141
12.0
290
     0
  0
SCALE
  5
64
102
{ACAD_REACTORS
330
47
102
}
330
47
100
AcDbScale
 70
     0
300
1" = 1'-0"
140
1.0
141
12.0
290
     0
  0
SCALE
  5
65
102
{ACAD_REACTORS
330
47
102
}
330
47
100
AcDbScale
 70
     0
300
1-1/2" = 1'-0"
140
1.5
141
12.0
290
     0
  0
SCALE
  5
66
102
{ACAD_REACTORS
330
47
102
}
330
47
100
AcDbScale
 70
     0
300
3" = 1'-0"
140
3.0
141
12.0
290
     0
  0
SCALE
  5
67
102
{ACAD_REACTORS
330
47
102
}
330
47
100
AcDbScale
 70
     0
300
6" = 1'-0"
140
6.0
141
12.0
290
     0
  0
SCALE
  5
68
102
{ACAD_REACTORS
330
47
102
}
330
47
100
AcDbScale
 70
     0
300
1'-0" = 1'-0"
140
12.0
141
12.0
290
     0
  0
ENDSEC
  0
EOF
